0
SECTION
2
HEADER
9
$INSUNITS
70
4
9
$ACADVER
1
AC1014
9
$HANDSEED
5
FFFF
0
ENDSEC
0
SECTION
2
TABLES
0
TABLE
2
VPORT
5
8
100
AcDbSymbolTable
0
ENDTAB
0
TABLE
2
LTYPE
5
5
100
AcDbSymbolTable
0
LTYPE
5
14
100
AcDbSymbolTableRecord
100
AcDbLinetypeTableRecord
2
BYBLOCK
70
0
0
LTYPE
5
15
100
AcDbSymbolTableRecord
100
AcDbLinetypeTableRecord
2
BYLAYER
70
0
0
ENDTAB
0
TABLE
2
LAYER
5
2
100
AcDbSymbolTable
70
2
0
LAYER
5
50
100
AcDbSymbolTableRecord
100
AcDbLayerTableRecord
2
0
70
0
6
CONTINUOUS
0
ENDTAB
0
TABLE
2
STYLE
5
3
100
AcDbSymbolTable
70
1
0
STYLE
5
11
100
AcDbSymbolTableRecord
100
AcDbTextStyleTableRecord
2
STANDARD
70
0
0
ENDTAB
0
TABLE
2
VIEW
5
6
100
AcDbSymbolTable
70
0
0
ENDTAB
0
TABLE
2
UCS
5
7
100
AcDbSymbolTable
70
0
0
ENDTAB
0
TABLE
2
APPID
5
9
100
AcDbSymbolTable
70
2
0
APPID
5
12
100
AcDbSymbolTableRecord
100
AcDbRegAppTableRecord
2
ACAD
70
0
0
ENDTAB
0
TABLE
2
DIMSTYLE
5
A
100
AcDbSymbolTable
70
1
0
ENDTAB
0
TABLE
2
BLOCK_RECORD
5
1
100
AcDbSymbolTable
70
1
0
BLOCK_RECORD
5
1F
100
AcDbSymbolTableRecord
100
AcDbBlockTableRecord
2
*MODEL_SPACE
0
BLOCK_RECORD
5
1B
100
AcDbSymbolTableRecord
100
AcDbBlockTableRecord
2
*PAPER_SPACE
0
ENDTAB
0
ENDSEC
0
SECTION
2
BLOCKS
0
BLOCK
5
20
100
AcDbEntity
100
AcDbBlockBegin
2
*MODEL_SPACE
0
ENDBLK
5
21
100
AcDbEntity
100
AcDbBlockEnd
0
BLOCK
5
1C
100
AcDbEntity
100
AcDbBlockBegin
2
*PAPER_SPACE
0
ENDBLK
5
1D
100
AcDbEntity
100
AcDbBlockEnd
0
ENDSEC
0
SECTION
2
ENTITIES
0
LWPOLYLINE
5
100
100
AcDbEntity
8
0
100
AcDbPolyline
90
54
70
1
43
0.0
10
-76.43617012459633
20
52.213347286359181
10
-81.632322547302962
20
55.213347286359181
10
-80.600798122133853
20
57.000000000000377
10
-64.440414205673889
20
57.000000000000313
10
-64.440414205673875
20
53.500000000000306
10
-44.440414205673889
20
53.500000000000284
10
-44.440414205673868
20
57.000000000000256
10
-9.9999999999999112
20
57.000000000000163
10
-9.9999999999999289
20
53.500000000000156
10
10.000000000000115
20
53.499999999999936
10
10.000000000000187
20
56.999999999999943
10
44.440414205674131
20
56.999999999999247
10
44.44041420567406
20
53.499999999999261
10
64.44041420567406
20
53.499999999998835
10
64.440414205674145
20
56.999999999998835
10
80.600798122134108
20
56.999999999999929
10
81.632322547303005
20
55.213347286359124
10
76.436170124596359
20
52.213347286359131
10
83.436170228904487
20
40.088991452710005
10
88.632322651611133
20
43.088991452710005
10
89.663847076780243
20
41.302338739068816
10
81.583655118550212
20
27.307035732505067
10
78.552566205304672
20
29.057035732505064
10
68.552566205304657
20
11.736527656816293
10
71.583655118550155
20
9.9865276568163015
10
54.363448015713104
20
-19.839745962155757
10
51.332359102467571
20
-18.089745962155746
10
41.332359102467358
20
-35.410254037844446
10
44.363448015712869
20
-37.160254037844503
10
27.143240912875299
20
-66.986527656816264
10
24.11215199962982
20
-65.236527656816222
10
14.112151999629441
20
-82.557035732504787
10
17.143240912874944
20
-84.307035732504843
10
9.0630489546459145
20
-98.302338739069171
10
7.0000001043081284
20
-98.302338739069171
10
7.0000001043081284
20
-92.302338739069171
10
-7.0000001043081284
20
-92.302338739069171
10
-7.0000001043081284
20
-98.302338739069171
10
-9.0630489546463622
20
-98.302338739069171
10
-17.143240912876333
20
-84.307035732505341
10
-14.112151999630811
20
-82.557035732505341
10
-24.112151999630804
20
-65.236527656816577
10
-27.143240912876298
20
-66.986527656816534
10
-44.363448015713189
20
-37.160254037844389
10
-41.332359102467649
20
-35.410254037844396
10
-51.332359102467464
20
-18.089745962155469
10
-54.363448015713033
20
-19.839745962155419
10
-71.583655118549402
20
9.9865276568170245
10
-68.552566205303876
20
11.736527656816964
10
-78.552566205303506
20
29.057035732505973
10
-81.583655118549075
20
27.307035732506012
10
-89.663847076780002
20
41.30233873906927
10
-88.632322651611091
20
43.088991452710069
10
-83.436170228904473
20
40.088991452710076
0
LWPOLYLINE
5
101
100
AcDbEntity
8
0
100
AcDbPolyline
90
6
70
1
43
0.0
10
75.914736721350863
20
35.48818104459437
10
68.691034679395585
20
47.999999999999957
10
-68.691034679395514
20
48.000000000000043
10
-75.914736721350806
20
35.488181044594462
10
-7.2237020419553089
20
-83.488181044594413
10
7.2237020419552511
20
-83.488181044594413
0
LWPOLYLINE
5
102
100
AcDbEntity
8
0
100
AcDbPolyline
90
101
70
1
43
0.0
10
35.061197056674644
20
11.430078899770926
42
-5.3368510323570186
10
35.830568136404779
20
10.7307792204947
10
30.864756831054791
20
5.7649679151447142
10
22.655141112742498
20
5.7649679151447142
10
18.224960581333029
20
1.3347873837352497
10
18.224960581333029
20
-4.4999998994171619
10
11.336207698265886
20
-11.388752782484294
10
11.336207698265886
20
-17.61262004413901
10
1.7474246679317407
20
-27.201403074473145
10
1.7474246679317407
20
-62.000000923871994
10
-1.7998547026301526
20
-62.000000923871994
10
-1.7998547026301526
20
-36.836826668605134
10
-10.793508759919156
20
-27.843172611316128
10
-10.793508759919156
20
-15.000000223517418
10
-18.920227753482678
20
-6.8732812299538963
10
-18.920227753482678
20
6.4636030058264655
10
-25.835043962775718
20
13.378419215119507
10
-25.835043962775718
20
22.501004501684505
10
-30.667430852910847
20
27.333391391819639
42
-4.9601950762282296
10
-29.877946843085379
20
27.877946813283057
10
-25.835043962775718
20
23.835043932973392
10
-25.835043962775718
20
32.866108620037622
42
-5.2729536876232848
10
-23.790278323084443
20
32.871409449918943
10
-23.790278323084443
20
13.558763330934443
10
-23.140741168461318
20
12.909226176311318
10
-20.577883529876093
20
15.472083814896536
10
-20.577883529876097
20
25.324832741195102
42
-3.809279853737221
10
-19.207885077752799
20
25.445636130499331
10
-19.207885077752799
20
15.325164617321295
10
-22.347007876392794
20
12.1860418186813
10
-20.577883529876093
20
10.416917472164599
10
-17.239197784039394
20
13.755603218001298
10
-17.239197784039398
20
22.230613667027903
42
-3.9179085368630227
10
-16.000000238418576
20
22.099999257673993
10
-16.000000238418579
20
13.755603218001298
10
-19.958284757065684
20
9.7973186993541912
10
-17.239197784039394
20
7.0782317263279007
10
-17.239197784039394
20
-6.5064825678058016
10
-8.8991936702084828
20
-14.846486681636716
10
-8.8991936702084828
20
-27.466495674364104
10
-1.7998547026301526
20
-34.56583464194243
10
-1.7998547026301526
20
-17.806837684638921
10
-5.8609656447680845
20
-13.74572674250099
10
-5.8609656447680836
20
-5.4531827645378002
42
-5.710348779361059
10
-5.0000000745058051
20
-5.4870191319721986
10
-5.000000074505806
20
-13.351546917020061
10
-1.7998547026301526
20
-16.551692288895715
10
-1.7998547026301526
20
-2.8640588656901489
10
-11.150830656324866
20
6.4869170880045646
10
-11.150830656324866
20
25.00000037252903
10
-16.321278722919576
20
30.170448439123739
10
-16.321278722919573
20
35.832710959466311
42
-5.6276942905633272
10
-13.000000193715096
20
35.892147411530068
10
-13.000000193715096
20
31.57605096729316
10
-7.6792122729380825
20
26.255263046516149
10
-7.6792122729380825
20
18.464802719883963
10
-1.3255089470822023
20
24.818506045739845
10
-1.3255089470822052
20
39.640226234756931
42
-5.2848534837739143
10
0.50000000745058126
20
39.708712744227995
10
0.5000000074505806
20
32.000000476837158
10
5.2045396555628001
20
36.704540124949375
10
5.2045396555628001
20
39.93271825007659
42
-6.165559416924296
10
6.0999998636543751
20
39.93271825007659
10
6.0999998636543662
20
36.267695321976198
10
0.5000000074505806
20
30.667695465772411
10
0.5000000074505806
20
24.000000357627869
10
-7.6792122729380825
20
15.820788077239207
10
-7.6792122729380825
20
8.0000001192092896
10
0.5000000074505806
20
-0.17921216117937622
10
7.1380334274258193
20
6.4588212587958616
10
7.1380334274258184
20
21.764042994218205
42
-5.3074416036933734
10
9.000000134110449
20
21.764042994218208
10
9.0000001341104507
20
12.774261615387045
10
15.842016841421014
20
19.61627832269761
10
15.842016841421012
20
33.308078385896337
42
-6.5196505207664694
10
16.699999626725912
20
33.308078385896337
10
16.699999626725912
20
27.099999394267797
10
23.839366935732009
20
34.239366703273902
42
-4.3177412338952461
10
24.63488032233434
20
33.482575272000446
10
16.699999626725912
20
25.547694576392015
10
16.699999626725912
20
19.000000283122063
10
9.0000001341104507
20
11.300000790506598
10
9.0000001341104507
20
5.000000074505806
10
1.7474246679317407
20
-2.2525753916729085
10
1.7474246679317407
20
-24.527845517948354
10
9.645951631838118
20
-16.62931855404198
10
9.6459516318381215
20
-4.1550663754945889
42
-5.7434414370716196
10
11.336207698265886
20
-4.1818542083423118
10
11.336207698265886
20
-8.8606103324444483
10
16.196817971105691
20
-4.0000000596046448
10
16.196817971105691
20
9.4141033097547577
10
21.60067289833804
20
14.817958236987096
10
29.000000432133675
20
14.817958236987096
10
36.583914850341223
20
22.401872655194644
42
-5.0356051862818907
10
37.958131631553684
20
21.016913180585938
10
29.841180179452405
20
12.899961728484657
10
22.257178610222326
20
12.899961728484659
10
18.224960581333029
20
8.8677436995953656
10
18.224960581333029
20
2.500000037252903
10
22.404018138783325
20
6.6790575947031954
10
30.310175751606899
20
6.6790575947031954
0
LWPOLYLINE
5
103
100
AcDbEntity
8
0
100
AcDbPolyline
90
54
70
1
43
0.0
10
-43.144157514357076
20
12.783692029620191
42
-7.2160064116277294
10
-42.634144548132547
20
13.411518974975813
10
-32.000000476837158
20
3.0000000447034836
10
-32.000000476837158
20
-10.329010307194146
10
-18.422740972149768
20
-23.622030733336729
10
-18.422740972149768
20
-19.566495998310007
10
-27.857747944113878
20
-10.329010307194146
10
-27.857747944113878
20
-4.1561725719092326
42
-4.0926072818710262
10
-25.519940586799773
20
-4.0000000596046448
10
-25.50000037997961
20
-4.0000000596046448
10
-25.50000037997961
20
-10.000000149011612
10
-16.565542050328077
20
-18.747416152335038
10
-16.565542050328077
20
-28.953528381865816
10
-5.000000074505806
20
-40.650528035115201
10
-5.000000074505806
20
-62.000000923871994
10
-6.6265219962858
20
-62.000000923871994
10
-6.6265219962858
20
-41.423189081302837
10
-11.000000163912773
20
-37.000000551342964
10
-24.000000357627869
20
-37.000000551342964
10
-33.36479137961193
20
-27.528766296528666
42
-7.9688528920313528
10
-32.83214663398099
20
-27.065652906741221
10
-24.429737683568902
20
-35.563566345202624
10
-12.380845644638793
20
-35.563566345202624
10
-18.405291664103849
20
-29.47064453072862
10
-18.405291664103849
20
-25.216027346763386
10
-21.16436359164797
20
-22.425594918500188
10
-28.000000417232513
20
-22.425594918500188
10
-34.57429961213181
20
-15.776570120193885
10
-41.000000610947609
20
-15.776570120193885
10
-47.122342424483001
20
-9.5846397965043888
42
-6.2585674772728286
10
-46.427212820280872
20
-9.0734787037728921
10
-41.000000610947609
20
-14.562378356153282
10
-34.591843113913512
20
-14.562378356153282
10
-28.021462895718294
20
-21.207439633403258
10
-22.50211379672028
20
-21.207439633403258
10
-24.668734359538774
20
-19.016192563011735
10
-28.021462895718294
20
-19.016192563011735
10
-34.448981940364114
20
-12.515616265450863
10
-41.000000610947609
20
-12.515616265450863
10
-47.095947199549002
20
-6.3503811833286239
42
-5.041342632569707
10
-46.260853621874595
20
-5.6717908723211838
10
-40.432433415583944
20
-11.566458781053255
10
-34.000000506639481
20
-11.566458781053255
10
-27.576049062548304
20
-18.063426927561814
10
-25.659496056588736
20
-18.063426927561814
10
-33.306988809699192
20
-10.329010307194146
10
-33.306988809699192
20
-4.3731214674826884
10
-38.357057705688824
20
-4.3731214674826884
10
-46.897557917433701
20
4.2644528220916724
42
-5.889677386536901
10
-46.280700330715369
20
4.9713685313788956
10
-46.279743848720265
20
4.9723142638736695
10
-38.357057705688824
20
-3.0404236831738087
10
-33.47042034376242
20
-3.0404236831738087
10
-33.47042034376242
20
3.0000000447034836
0
LWPOLYLINE
5
104
100
AcDbEntity
8
0
100
AcDbPolyline
90
61
70
1
43
0.0
10
13.15397141897477
20
-23.509701873728414
42
-5.2922122606099435
10
13.911972570245547
20
-24.424433819017487
10
10.301315868313113
20
-28.076130408662486
10
10.301315868313113
20
-35.288955777493364
10
16.565542050328077
20
-28.953528381865816
10
16.565542050328077
20
-18.747416152335035
10
25.50000037997961
20
-10.000000149011612
10
25.50000037997961
20
-4.0000000596046448
10
25.519940586799773
20
-4.000000059604643
42
-4.0926072818710137
10
27.857747944113882
20
-4.1561725719092282
10
27.857747944113878
20
-10.329010307194144
10
18.422740972149768
20
-19.566495998310003
10
18.422740972149768
20
-23.622030733336729
10
32.000000476837158
20
-10.329010307194144
10
32.000000476837158
20
3.0000000447034836
10
42.634144548132568
20
13.411518974975818
42
-7.2160064116277169
10
43.14415751435709
20
12.7836920296202
10
33.47042034376242
20
3.0000000447034836
10
33.47042034376242
20
-3.0404236831738096
10
38.357057705688824
20
-3.0404236831738096
10
46.279743848720265
20
4.9723142638736739
10
46.280700330715369
20
4.9713685313788947
42
-5.8896773865369081
10
46.897557917433701
20
4.2644528220916724
10
38.357057705688824
20
-4.3731214674826902
10
33.306988809699192
20
-4.3731214674826902
10
33.306988809699192
20
-10.329010307194144
10
25.659496056588736
20
-18.063426927561814
10
27.576049062548304
20
-18.063426927561814
10
34.000000506639481
20
-11.566458781053255
10
40.432433415583944
20
-11.566458781053255
10
46.260853621874588
20
-5.6717908723211883
42
-5.0413426325696893
10
47.095947199549002
20
-6.3503811833286239
10
41.000000610947609
20
-12.515616265450866
10
34.448981940364114
20
-12.515616265450866
10
28.021462895718294
20
-19.016192563011735
10
24.668734359538774
20
-19.016192563011735
10
22.50211379672028
20
-21.207439633403258
10
28.021462895718294
20
-21.207439633403258
10
34.591843113913512
20
-14.562378356153278
10
41.000000610947609
20
-14.562378356153278
10
46.427212820280872
20
-9.0734787037728886
42
-6.2585674772727931
10
47.122342424483001
20
-9.5846397965043817
10
41.000000610947609
20
-15.776570120193885
10
34.57429961213181
20
-15.776570120193885
10
28.000000417232513
20
-22.425594918500188
10
21.16436359164797
20
-22.425594918500188
10
18.405291664103849
20
-25.216027346763386
10
18.405291664103849
20
-29.47064453072862
10
12.380845644638793
20
-35.563566345202624
10
24.429737683568902
20
-35.563566345202624
10
32.83214663398099
20
-27.065652906741214
42
-4.7261411339586408
10
33.819563118309681
20
-27.668774444486051
10
24.593206751379096
20
-37.000000551342964
10
11.000000163912773
20
-37.000000551342964
10
6.6265219962858
20
-41.423189081302837
10
6.6265219962858
20
-62.000000923871994
10
5.000000074505806
20
-62.000000923871994
10
5.000000074505806
20
-40.650528035115201
10
9.2010099929172213
20
-36.401768084074348
10
9.2010099929172213
20
-27.500000409781933
10
13.150174899696694
20
-23.505948021939563
0
LWPOLYLINE
5
105
100
AcDbEntity
8
0
100
AcDbPolyline
90
6
70
1
43
0.0
10
75.914736721350863
20
35.48818104459437
10
7.2237020419552467
20
-83.488181044594413
10
-7.2237020419553133
20
-83.488181044594413
10
-75.914736721350806
20
35.488181044594462
10
-68.691034679395528
20
48.000000000000043
10
68.691034679395585
20
47.999999999999957
0
CIRCLE
5
106
100
AcDbEntity
8
0
100
AcDbCircle
10
38.945792176221737
20
23.371171199278251
30
0
40
0.63116135936466033
210
0
220
-0
230
1
0
CIRCLE
5
107
100
AcDbEntity
8
0
100
AcDbCircle
10
36.346139084082523
20
12.070893272231057
30
0
40
0.53760071663635944
210
0
220
-0
230
1
0
CIRCLE
5
108
100
AcDbEntity
8
0
100
AcDbCircle
10
44.000000655651093
20
14.000000208616257
30
0
40
0.60801035208768006
210
0
220
-0
230
1
0
CIRCLE
5
109
100
AcDbEntity
8
0
100
AcDbCircle
10
26.839092540122632
20
-1.8289611864101474
30
0
40
0.72060587164266554
210
0
220
-0
230
1
0
CIRCLE
5
110
100
AcDbEntity
8
0
100
AcDbCircle
10
47.599998936057091
20
5.4999998770654202
30
0
40
0.56934316879385882
210
0
220
-0
230
1
0
CIRCLE
5
111
100
AcDbEntity
8
0
100
AcDbCircle
10
47.500000707805157
20
-5.000000074505806
30
0
40
0.50510595314236184
210
0
220
-0
230
1
0
CIRCLE
5
112
100
AcDbEntity
8
0
100
AcDbCircle
10
47.554143215869537
20
-8.2691974879008434
30
0
40
0.44797026451611544
210
0
220
-0
230
1
0
CIRCLE
5
113
100
AcDbEntity
8
0
100
AcDbCircle
10
25.010212309517115
20
34.673615487748428
30
0
40
0.34945286967149158
210
0
220
-0
230
1
0
CIRCLE
5
114
100
AcDbEntity
8
0
100
AcDbCircle
10
16.271008234073463
20
34.673615487748428
30
0
40
0.3987035637535552
210
0
220
-0
230
1
0
CIRCLE
5
115
100
AcDbEntity
8
0
100
AcDbCircle
10
5.652269759608588
20
41.276662569408515
30
0
40
0.41327504931728543
210
0
220
-0
230
1
0
CIRCLE
5
116
100
AcDbEntity
8
0
100
AcDbCircle
10
-0.5000000074505806
20
42.00000062584877
30
0
40
0.70710679172325974
210
0
220
-0
230
1
0
CIRCLE
5
117
100
AcDbEntity
8
0
100
AcDbCircle
10
-14.741621648398864
20
40.387672530729866
30
0
40
1.6413095955630208
210
0
220
-0
230
1
0
CIRCLE
5
118
100
AcDbEntity
8
0
100
AcDbCircle
10
8.0690167807681341
20
24.146907412080452
30
0
40
0.78533356208155158
210
0
220
-0
230
1
0
CIRCLE
5
119
100
AcDbEntity
8
0
100
AcDbCircle
10
10.528377233980608
20
-1.8150619224814086
30
0
40
0.94167621889169162
210
0
220
-0
230
1
0
CIRCLE
5
120
100
AcDbEntity
8
0
100
AcDbCircle
10
14.699999671429396
20
-22.999999485909939
30
0
40
0.36055511948736463
210
0
220
-0
230
1
0
CIRCLE
5
121
100
AcDbEntity
8
0
100
AcDbCircle
10
34.006560765756035
20
-26.252777903854462
30
0
40
0.25286263031396583
210
0
220
-0
230
1
0
CIRCLE
5
122
100
AcDbEntity
8
0
100
AcDbCircle
10
-30.920517857653671
20
28.544876801282332
30
0
40
0.39335927861920084
210
0
220
-0
230
1
0
CIRCLE
5
123
100
AcDbEntity
8
0
100
AcDbCircle
10
-19.999999552965164
20
26.599999405443668
30
0
40
0.44721358550395607
210
0
220
-0
230
1
0
CIRCLE
5
124
100
AcDbEntity
8
0
100
AcDbCircle
10
-16.49999963119626
20
23.299999479204416
30
0
40
0.4999999888241291
210
0
220
-0
230
1
0
CIRCLE
5
125
100
AcDbEntity
8
0
100
AcDbCircle
10
-26.839092540122632
20
-1.8289611864101456
30
0
40
0.72060587164266554
210
0
220
-0
230
1
0
CIRCLE
5
126
100
AcDbEntity
8
0
100
AcDbCircle
10
-5.3836598564472364
20
-4.2786907379013321
30
0
40
0.47214933233410861
210
0
220
-0
230
1
0
CIRCLE
5
127
100
AcDbEntity
8
0
100
AcDbCircle
10
-44.000000655651093
20
14.000000208616257
30
0
40
0.60801035208768006
210
0
220
-0
230
1
0
CIRCLE
5
128
100
AcDbEntity
8
0
100
AcDbCircle
10
-47.599998936057091
20
5.4999998770654202
30
0
40
0.56934316879385882
210
0
220
-0
230
1
0
CIRCLE
5
129
100
AcDbEntity
8
0
100
AcDbCircle
10
-47.554143215869537
20
-8.2691974879008399
30
0
40
0.44797026451611544
210
0
220
-0
230
1
0
CIRCLE
5
130
100
AcDbEntity
8
0
100
AcDbCircle
10
-47.500000707805157
20
-5.000000074505806
30
0
40
0.50510595314236184
210
0
220
-0
230
1
0
CIRCLE
5
131
100
AcDbEntity
8
0
100
AcDbCircle
10
-34.006560765756035
20
-26.252777903854462
30
0
40
0.25286263031396583
210
0
220
-0
230
1
0
ENDSEC
0
SECTION
2
OBJECTS
0
DICTIONARY
5
C
100
AcDbDictionary
3
ACAD_GROUP
350
D
3
ACAD_MLINESTYLE
350
17
0
DICTIONARY
5
D
100
AcDbDictionary
0
DICTIONARY
5
1A
330
C
100
AcDbDictionary
0
DICTIONARY
5
17
100
AcDbDictionary
0
ENDSEC
0
EOF
